Trust-antisocial

Antisocial by Trust

3 guitars : one acoustic, one electric clean, and one electric with distortion


Guit 1 : Acoustic

Intro

e--0---------0-----------|--3--------3-----------|
b--3------------3-----3--|--3-----------3-----3--|
g--0------0--------0-----|--0--------------0-----|
d--2---------------------|--0--------------------|
a--3---------------------|--2--------------------|
e------------------------|--3--------------------|

e--0---------0-----------|--3--------3-----------|
b--3------------3-----3--|--3-----------3-----3--|
g--0------0--------0-----|--0--------------0-----|
d--2---------------------|--0--------------------|
a--3---------------------|--2--------------------|
e------------------------|--3--------------------|

e--0---------0-----------|--3----------------|
b--3------------3-----3--|--3----------------|
g--0------0--------0-----|--0----------------|
d--2---------------------|--0----------------|
a--3---------------------|--2----------------|
e------------------------|--3----------------|


Guit 1 + guit 2 (clean)

{************************ twice ************
e--0--------0---------|--0--------0---------|
b--3-----------3------|--3-----------3------|
g--0------------------|--0------------------|
d--2------------------|--2------------------|
a--3------------------|--3------------------|
e---------------------|---------------------|

*******************************************}
e--3--------3---------|--3--------3---------|
b--3-----------3------|--3-----------3------|
g--0------------------|--0------------------|
d--0------------------|--0------------------|
a--2------------------|--2------------------|
e--3------------------|--3------------------|

Guit 3 (dist)

Pre verse

e----------------------------------|
b------3-----3---3-----3-------3-0-|
g------2-----2---2-----2-------2-0-|
d--0-0---0-0---0---0-0---0-0-0-----|
a----------------------------------|
e----------------------------------|

e----------------------------------|
b------3-----3---3-----3-----3-0---|
g------3-----3---3-----3-----3-0---|
d--0-0---0-0---0---0-0---0-0-----5-|
a--------------------------------3-|
e----------------------------------|

e---------------------------------|
b---------------------------------|
g--5--5-----5---5-----5-------5-0-|
d--5--5-----5---5-----5-------5-0-|
a--3----3-3---3---3-3---3-3-3-----|
e---------------------------------|

e--------------------------------|
b------------------3-2-3-2---2-0-|
g------2-----2-----2-2-2-2---2-0-|
d------2-----2-----4-2-4-2---2-0-|
a--0-0---0-0---0-0---------------|
e--------------------------------|

Verse

e----------------------------------|
b------3-----3---3-----3-------3-0-|
g------2-----2---2-----2-------2-0-|
d--0-0---0-0---0---0-0---0-0-0-----|
a----------------------------------|
e----------------------------------|

e----------------------------------|
b------3-----3---3-----3-----3-0---|
g------3-----3---3-----3-----3-0---|
d--0-0---0-0---0---0-0---0-0-----5-|
a--------------------------------3-|
e----------------------------------|

e---------------------------------|
b---------------------------------|
g--5--5-----5---5-----5-------5-0-|
d--5--5-----5---5-----5-------5-0-|
a--3----3-3---3---3-3---3-3-3-----|
e---------------------------------|

e--------------------------------|
b------------------3-2-3-2---2-0-|
g------2-----2-----2-2-2-2---2-0-|
d------2-----2-----4-2-4-2---2-0-|
a--0-0---0-0---0-0---------------|
e--------------------------------|

Refrain

e----------------------------------|
b------3-----3---3-----3-------3-0-|
g------2-----2---2-----2-------2-0-|
d--0-0---0-0---0---0-0---0-0-0-----|
a----------------------------------|
e----------------------------------|

e----------------------------------|
b------3-----3---3-----3-------3-0-|
g------3-----3---3-----3-------3-0-|
d--0-0---0-0---0---0-0---0-0-0-----|
a----------------------------------|
e----------------------------------|

e----------------------------------|----------------------|
b----------------------------------|----------3-----------|
g------5-----5---5-----5-----5-0-2-|----------2---------2-|
d------5-----5---5-----5-----5-0-2-|----------4---------2-|
a--3-3---3-3---3---3-3---3-3-----0-|--------0---------0-0-|
e----------------------------------|----------------------|

e------------------------------|----------------------|
b------------------------------|--------------------3-|
g----2--2-----2----------------|--------7-5-------5-0-|
d----2--2-----2--------3h0-----|--------7-5-------5-0-|
a----0--0-0-3b-------------3-5-|--------5-3-------3-2-|
e----------------1-3-5---------|--------------------3-|

e----3-----------------------|--------------------------|
b----3-----------------------|------------------------3-|
g----0---------------------7-|------5h7-7-5---5--5--5-0-|
d----0------3--------3h0---7-|------5h7-7-5---5--5--5-0-|
a-----------3------------3-5-|------------3---3--3--3-2-|
e---------1-1--1-3-5---------|------------------------3-|

e----3-----------------------|----------------------|
b----3-----------------------|--------------------3-|
g----0---------------------7-|--------7-5-------5-0-|
d----0------3--------3h0---7-|--------7-5-------5-0-|
a-----------3------------3-5-|--------5-3-------3-2-|
e---------1-1--1-3-5---------|--------------------3-|


e----3-----------------------|--------------------------|
b----3-----------------------|------------------------3-|
g----0---------------------7-|------5h7-7-5---5--5--5-0-|
d----0------3--------3h0---7-|------5h7-7-5---5--5--5-0-|
a-----------3------------3-5-|------------3---3--3--3-2-|
e---------1-1--1-3-5---------|------------------------3-|

e----------------------------------|
b----------------------------------|
g--------------------------5-5-5-7-|
d--------------------------5-5-5-7-|
a--------------------------3-3-3-5-|
e----3-0-3-0-3-0-3-0-3-0-3---------|

Verse

e----------------------------------|
b------3-----3---3-----3-------3-0-|
g------2-----2---2-----2-------2-0-|
d--0-0---0-0---0---0-0---0-0-0-----|
a----------------------------------|
e----------------------------------|

e----------------------------------|
b------3-----3---3-----3-----3-0---|
g------3-----3---3-----3-----3-0---|
d--0-0---0-0---0---0-0---0-0-----5-|
a--------------------------------3-|
e----------------------------------|

e---------------------------------|
b---------------------------------|
g--5--5-----5---5-----5-------5-0-|
d--5--5-----5---5-----5-------5-0-|
a--3----3-3---3---3-3---3-3-3-----|
e---------------------------------|

e--------------------------------|
b------------------3-2-3-2---2-0-|
g------2-----2-----2-2-2-2---2-0-|
d------2-----2-----4-2-4-2---2-0-|
a--0-0---0-0---0-0---------------|
e--------------------------------|

Refrain
[ Tab from: http://www.guitaretab.com/t/trust/19819.html ]
e----------------------------------|
b------3-----3---3-----3-------3-0-|
g------2-----2---2-----2-------2-0-|
d--0-0---0-0---0---0-0---0-0-0-----|
a----------------------------------|
e----------------------------------|

e----------------------------------|
b------3-----3---3-----3-------3-0-|
g------3-----3---3-----3-------3-0-|
d--0-0---0-0---0---0-0---0-0-0-----|
a----------------------------------|
e----------------------------------|

e----------------------------------|----------------------|
b----------------------------------|----------3-----------|
g------5-----5---5-----5-----5-0-2-|----------2---------2-|
d------5-----5---5-----5-----5-0-2-|----------4---------2-|
a--3-3---3-3---3---3-3---3-3-----0-|--------0---------0-0-|
e----------------------------------|----------------------|

e------------------------------|----------------------|
b------------------------------|--------------------3-|
g----2--2-----2----------------|--------7-5-------5-0-|
d----2--2-----2--------3h0-----|--------7-5-------5-0-|
a----0--0-0-3b-------------3-5-|--------5-3-------3-2-|
e----------------1-3-5---------|--------------------3-|

e----3-----------------------|--------------------------|
b----3-----------------------|------------------------3-|
g----0---------------------7-|------5h7-7-5---5--5--5-0-|
d----0------3--------3h0---7-|------5h7-7-5---5--5--5-0-|
a-----------3------------3-5-|------------3---3--3--3-2-|
e---------1-1--1-3-5---------|------------------------3-|

e----3-----------------------|----------------------|
b----3-----------------------|--------------------3-|
g----0---------------------7-|--------7-5-------5-0-|
d----0------3--------3h0---7-|--------7-5-------5-0-|
a-----------3------------3-5-|--------5-3-------3-2-|
e---------1-1--1-3-5---------|--------------------3-|


e----3-----------------------|--------------------------|
b----3-----------------------|------------------------3-|
g----0---------------------7-|------5h7-7-5---5--5--5-0-|
d----0------3--------3h0---7-|------5h7-7-5---5--5--5-0-|
a-----------3------------3-5-|------------3---3--3--3-2-|
e---------1-1--1-3-5---------|------------------------3-|

e----------------------------------|
b----------------------------------|
g--------------------------5-5-5-7-|
d--------------------------5-5-5-7-|
a--------------------------3-3-3-5-|
e----3-0-3-0-3-0-3-0-3-0-3---------|


Bridge (guit1)

e--0--------0---------|--3------------------|
b--3-----------3------|--3-----------3------|
g--0------------------|--0--------0---------|
d--2------------------|--0------------------|
a--3------------------|--2------------------|
e---------------------|--3------------------|

e--0--------0---------|--3------3-----------|
b--3-----------3------|--3---------3--------|
g--0------------------|--0------------------|
d--2------------------|--0------------------|
a--3------------------|--2------------------|
e---------------------|--3------------------|


Solo guit 3

e-------------------|------------------|
b-------------------|------------------|
g-------------------|------------------|
d-------------------|------------------|
a-----------------0-|------------------|
e-------------------|------------------|

e-----------------10-|
b-----------------13b|
g--------------------|
d--------------------|
a--------------------|
e--------------------|

e----------13---------13b|-----------------5-|
b--------------13r-------|-----------------6b|
g------------------------|-------------------|
d------------------------|-------------------|
a------------------------|-------------------|
e------------------------|-------------------|

e-----------7b-----------|-------------------------------|
b---------6-----6--------|-------------------------------|
g----7~----------------5b|---------------------------5/7~|
d-----------------7~-----|----7-6-5---7-5---5------------|
a------------------------|----------8-----8---5-5--------|
e------------------------|-------------------------------|

e-----------8--------------|--------------------|
b------6-8b---8r-6-8r--6-8-|-----------------13b|
g--------------------------|--------------------|
d--------------------------|--------------------|
a--------------------------|--------------------|
e--------------------------|--------------------|

e----10-----------10-----------10-----------10-------|
b-------13-10-13b----13-10-13b----13-10-13b----13-10-|
g----------------------------------------------------|
d----------------------------------------------------|
a----------------------------------------------------|
e----------------------------------------------------|

e--13-10----10-------------------------------------------
b--------13----13-10-13-10----10-------------------------
g--------------------------12----12-10-12-10----10-------
d--------------------------------------------12----12-10-
a--------------------------------------------------------
e--------------------------------------------------------

e-------------------|---------------------|
b-------------------|---------------------|
g-------------------|---------------------|
d-12-10----10-------|---------------------|
a-------12----10----|--10------------10/--|
e----------------13-|---------------------|

Bridge : guit1

{****************** 4 times *****************}
e--0--------0---------|--3--------3---------|
b--3-----------3------|--3-----------3------|
g--0------------------|--0------------------|
d--2------------------|--0------------------|
a--3------------------|--2------------------|
e---------------------|--3------------------|

Outro guit3

{******************************** twice *********** 
e--------------------------------------------------|
b--------------------------------------------------|
g--------------------------------------------------|
d--10-10-10-10-10-10-10-10-10-10-10-10-10-10-10-10-|
a--10-10-10-10-10-10-10-10-10-10-10-10-10-10-10-10-|
e--8--8--8--8--8--8--8--8--8--8--8--8--8--8--8--8--|

***********************************}
e----------------------------------| 
b----------------------------------|
g----------------------------------|
d--5-5-5-5-5-5-5-5-5-5-5-5-5-5-5-5-|
a--5-5-5-5-5-5-5-5-5-5-5-5-5-5-5-5-|
e--3-3-3-3-3-3-3-3-3-3-3-3-3-3-3-3-|

e--------------------------------------------------|
b--------------------------------------------------|
g--------------------------------------------------|
d--10-10-10-10-10-10-10-10-10-10-10-10-10-10-10-10-|
a--10-10-10-10-10-10-10-10-10-10-10-10-10-10-10-10-|
e--8--8--8--8--8--8--8--8--8--8--8--8--8--8--8--8--|

e---------------------------------|-----------------------|
b---------------------------------|-----------------------|
g-------------------------------7-|-------7-5--7-5--7-5---|
d--5-5-5-5-5-5-5-5--------3h0---7-|-------7-5--7-5--7-5---|
a--5-5-5-5-5-5-5-5------------3-5-|-------5-3--5-3--5-3---|
e--3-3-3-3-3-3-3-3--1-3-5---------|-----------------------|

e----------3--------|
b----------3--------|
g----------0--------|
d----------0--------|
a----------2--------|
e----------3--------|

Créer un site gratuit avec e-monsite - Signaler un contenu illicite sur ce site