the white stripes-seven nation

 

[Intro]
e|----------------|
B|----------------|
G|----------------|
D|----------------| x 12
A|----------------|
E|--5-5-8-5-3-1---|


[Verse 1]
I'm gonna fight em all,
A seven nation army couldn't hold me back.
They're gonna rip it off,
Takin their time right behind my back.

And i'm talking too myself at night because I can't forget.
Back and fourth through my mind behind a cigarette.


e |---------------------------------------------------------------------|
B |---------------------------------------------------------------------|
G |---------------------------------------------------------------------|
D |-10-10-10-10-10-10-10-10--12-12-12-12-12-12-12-12--------------------|
A |-10-10-10-10-10-10-10-10--12-12-12-12-12-12-12-12--------------------|
E |--8--8--8--8--8--8--8--8--10-10-10-10-10-10-10-10--------------------|

And the message coming from my eyes says leave it alone.





e |---------------------------------------------------------------------|
B |---------------------------------------------------------------------|
G |-9-9-12-9-7-5-4---9-9-12-14-12-5/75-4-------------------------------|
D |-9-9-12-9-7-5-4---9-9-12-14-12-5/75-4-------------------------------|
A |-7-7-10-7-5-3-2---7-7-10-12-10-3/53-2-------------------------------|
E |---------------------------------------------------------------------|

e |---------------------------------------------------------------------|
B |---------------------------------------------------------------------|
G |-9-9-12-9-7-5-4---9-9-12-9-7-5/75-4---------------------------------|
D |-9-9-12-9-7-5-4---9-9-12-9-5-5/75-4---------------------------------|
A |-7-7-10-7-5-3-2---7-7-10-7-5-3/53-2---------------------------------|
E |---------------------------------------------------------------------|

e |---------------------------------------------------------------------|
B |---------------------------------------------------------------------|
G |---------------------------------------------------------------------|
D |-10-10-10-10-10-10-10-10--12-12-12-12-12-12-12-12--------------------|
A |-10-10-10-10-10-10-10-10--12-12-12-12-12-12-12-12--------------------|
E |--8--8--8--8--8--8--8--8--10-10-10-10-10-10-10-10--------------------|

e |-----------------|
B |-----------------|
G |-----------------| 
D |-----------------| x 12
A |-----------------|
E |-5-5-8-5-3-1-0---|

[Verse 2]
Don't wanna hear about it,
Every single one's got a story to tell.
Everyone knows about it,
From the Queen of England to the hounds of hell.

And if I catch you coming back my way i'm gonna serve it to you.
And that aint what you want to hear, but that's what i'll do.



e |---------------------------------------------------------------------|
B |---------------------------------------------------------------------|
G |---------------------------------------------------------------------|
D |-10-10-10-10-10-10-10-10--12-12-12-12-12-12-12-12--------------------|
A |-10-10-10-10-10-10-10-10--12-12-12-12-12-12-12-12--------------------|
E |--8--8--8--8--8--8--8--8--10-10-10-10-10-10-10-10--------------------|

And the feeling coming from my bones, says find a home.



e |---------------------------------------------------------------------|
B |---------------------------------------------------------------------|
G |-9-9-12-9-7-5-4---9-9-12-14-12-5/75-4-------------------------------|
D |-9-9-12-9-7-5-4---9-9-12-14-12-5/75-4-------------------------------|
A |-7-7-10-7-5-3-2---7-7-10-12-10-3/53-2-------------------------------|
E |---------------------------------------------------------------------|

e |---------------------------------------------------------------------|
B |---------------------------------------------------------------------|
G |-9--------12-11---9-9-12-14-12-12b14b12-11---------------------------|
D |---------------------------------------------------------------------|
A |---------------------------------------------------------------------|
E |---------------------------------------------------------------------|



Both parts are going on at the same time for the following: 

e |---------------------------------------------------------------------|
B |---------------------------------------------------------------------|
G |-9-9-12-9-7-5-4---9-9-12-9-7-5/75-4---------------------------------|
D |-9-9-12-9-7-5-4---9-9-12-9-5-5/75-4---------------------------------|
A |-7-7-10-7-5-3-2---7-7-10-7-5-3/53-2---------------------------------|
E |---------------------------------------------------------------------|

e |---------------------------------------------------------------------|
B |-9--------12-11---9-9-12-14-12-12b14b12-11---------------------------|
G |---------------------------------------------------------------------|
D |---------------------------------------------------------------------|
A |---------------------------------------------------------------------|
E |---------------------------------------------------------------------|

e |---------------------------------------------------------------------|
B |---------------------------------------------------------------------|
G |-9-9-12-9-7-5-4---9-9-12-14-12-5/75-4-------------------------------|
D |-9-9-12-9-7-5-4---9-9-12-14-12-5/75-4-------------------------------|
A |-7-7-10-7-5-3-2---7-7-10-12-10-3/53-2-------------------------------|
E |---------------------------------------------------------------------|

e |-12-12-15-12-12-15b16-14--12-12-15-17-15-15b17b15-14-----------------|
B |---------------------------------------------------------------------|
G |---------------------------------------------------------------------|
D |---------------------------------------------------------------------|
A |---------------------------------------------------------------------|
E |---------------------------------------------------------------------|

e |---------------------------------------------------------------------|
B |---------------------------------------------------------------------|
G |-9-9-12-9-7-5-4---9-9-12-9-7-5/75-4---------------------------------|
D |-9-9-12-9-7-5-4---9-9-12-9-5-5/75-4---------------------------------|
A |-7-7-10-7-5-3-2---7-7-10-7-5-3/53-2---------------------------------|
E |---------------------------------------------------------------------|

e |-12-12-15-12-12-15b17-14--12-12-14-12-12-14-12-----------------------|
B |-----------------------------------------------13-12-----------------|
G |---------------------------------------------------------------------|
D |---------------------------------------------------------------------|
A |---------------------------------------------------------------------|
E |---------------------------------------------------------------------|


e |---------------------------------------------------------------------|
B |---------------------------------------------------------------------|
G |---------------------------------------------------------------------|
D |-10-10-10-10-10-10-10-10--12-12-12-12-12-12-12-12--------------------|
A |-10-10-10-10-10-10-10-10--12-12-12-12-12-12-12-12--------------------|
E |--8--8--8--8--8--8--8--8--10-10-10-10-10-10-10-10--------------------|

e |---------------------|
B |---------------------|
G |---------------------| 
D |---------------------| x 12
A |---------------------|
E |-5-5-8-5-3-1-0-------|

[Verse 3]
I'm going to Wichita,
Far from this opera for evermore.
I'm gonna work the straw,
Make the sweat drip out of every pore.

And i'm bleeding and i'm bleeding and i'm bleeding right before the lord.
All the words are gonna bleed from me, and I will think no more.



e |---------------------------------------------------------------------|
B |---------------------------------------------------------------------|
G |---------------------------------------------------------------------|
D |-10-10-10-10-10-10-10-10--12-12-12-12-12-12-12-12--------------------|
A |-10-10-10-10-10-10-10-10--12-12-12-12-12-12-12-12--------------------|
E |--8--8--8--8--8--8--8--8--10-10-10-10-10-10-10-10--------------------|

And the stains coming from my blood tell me go back home.



e |---------------------------------------------------------------------|
B |---------------------------------------------------------------------|
G |-9-9-12-9-7-5-4---9-9-12-14-12-5/75-4-------------------------------|
D |-9-9-12-9-7-5-4---9-9-12-14-12-5/75-4-------------------------------|
A |-7-7-10-7-5-3-2---7-7-10-12-10-3/53-2-------------------------------|
E |---------------------------------------------------------------------|

e |---------------------------------------------------------------------|
B |---------------------------------------------------------------------|
G |-9-9-12-9-7-5-4---9-9-12-9-7-5/75-4-9-------------------------------|
D |-9-9-12-9-7-5-4---9-9-12-9-5-5/75-4-9-------------------------------|
A |-7-7-10-7-5-3-2---7-7-10-7-5-3/53-2-7-------------------------------|
E |---------------------------------------------------------------------|

Créer un site gratuit avec e-monsite - Signaler un contenu illicite sur ce site