telphone-aui coeur de la nuit

Pour commencer à créer votre page, cliquez

Au coeur de la nuit - Téléphone:
Em
J'avais un ami
C
Mais il est parti
D
Ce sens à ma vie
A C
Il n'est plus en vie
Il m'a tout donné
Puis s'est effacé
Sans me déranger
Et je crois j'ai pleuré, j'ai pleuré
Em C
Tout au fond, l'air d'un con, envie de me casser
D A C
Voudrais bien essayer, voudrais bien continuer, continuer
Em C
Un moment, un instant, j'ai cru oublier
D A C
En parlant, en marchant, à Paris, à minuit, dans ma ville
Refrain:
G A C
Quelques mots perdus, dans la nuit
G A C
Quelques mots qui traînent, à minuit
G A C G
Quelques mots qui cognent au coeur de la nuit
C G A
Mais la nuit ne peut pas entendre
C G A
Non la nuit ne peux pas comprendre
C G A
C'est à croire
D (C)
Que la nuit n'a pas de coeur
Chords under solo: Em C D A C
J'avais une amie
Maintenant c'est fini
Ce sens à ma vie
Mais je n'ai plus envie
Et j'ai tout donné
J'ai tout dépensé
Pour ce souvenir
Ce rêve éveillé, réveillé
Plus un rond, l'air d'un con, envie de me cacher
Voudrais bien essayer, voudrais bien continuer, continuer
Un moment, un instant, j'ai cru oublier
En parlant, en marchant, à Paris, à minuit, tout près d'ici
Refrain (bis)
Outro: "Que la nuit n'a pas de...
D D4 D5 D D4 D5 D
e|---2---2---3-----0----------2---2---3----------0---------------2---|
B|-----3---3---(2)--------------3---3---(2)----------------------3---|
G|---------------------------------------------------------------2---|
D|---------------------------------------------------------------0---|
A|-------------------------------------------------------------------|
http://www.easyzic.com/partitions-tablatures/partition-telephone,a1348.html Page 1/2
Téléphone
Au coeur de la nuit*
E|-------------------------------------------------------------------|
...coeur, hmm... pas de coeur, non la nuit n'a pas de coeur"
Lead guitar: "Quelques mots perdus, dans la nuit..."
e|--15-15-12-12-10-10-8-7--|
B|-------------------------|
G|-------------------------|
D|-------------------------|
A|-------------------------|
E|-------------------------|
Solo après 1er couplet:
e|---------------------------|------------------------|
B|--8----12--10--8--10--8-8--|--12--10--8--12--10-10--|
G|---------------------------|------------------------|
D|---------------------------|------------------------|
A|---------------------------|------------------------|
E|---------------------------|------------------------|
e|----------------------|
B|--12--10--8--10--8-8--|
G|----------------------|
D|----------------------|
A|----------------------|

Créer un site gratuit avec e-monsite - Signaler un contenu illicite sur ce site