Survivor-eyes of the tiger

 

|--------------------------------|
|--------------------------------|
|--------------------------------| 4x
|--------------------------------|
|-3-3-3-3-3-3-3-3-3-3-3-3-3-3-3-3|
|--------------------------------|

Part A 
Gtr. 1
|--------------------------------|-------------------------------|
|--------------------------------|-------------------------------|
|-5---------------5-----3-----5--|----------------5-----3-----5--|
|-5---------------5-----3-----5--|----------------5-----3-----5--|
|-3---------------3-----1-----3--|----------------3-----1-----3--|
|--------------------------------|-------------------------------|
|Gtr. 2
|--------------------------------|------------------------during-|
|--------------------------------|--------------------------the--|
|--------------------------------|-------------------------whole-|
|--------------------------------|-------------------------intro-| 
|-3-3-3-3-3-3-3-3-3-3-3-3-3-3-3-3|3-3-3-3-3-3-3-3-3-3-3-3-3-3-...|
|--------------------------------|-------------------------------|

|--------------------------------|-------------------------------|
|--------------------------------|-------------------------------|
|-----------------5--------------|-------------------------------|
|-----------------5-----5-----6--|-------------------------------|
|-----------------3-----3-----6--|-------------------------------|
|-----------------------3-----4--|-------------------------------|

|--------------------------------|-------------------------------|
|--------------------------------|-------------------------------|
|-5---------------5-----3-----5--|--------------------5-----3----|
|-5---------------5-----3-----5--|--------------------5-----3----|
|-3---------------3-----1-----3--|--------------------3-----1----|
|--------------------------------|-------------------------------|

|--------------------------------|-------------------------------|
|--------------------------------|-------------------------------|
|-5---------------5--------------|-------------------------------|
|-5---------------5-----5-----6--|-------------------------------|
|-3---------------3-----3-----6--|-------------------------------|
|-----------------------3-----4--|-------------------------------|

Part B
|---------------------------------|-------------------------------|
|------------------8-----6-----8~~|----------------8-----6-----8~~|
|*-5---------------8-----7-----8~~|----------------8-----7-----8~~|
|--5---------------8-----8-----8~~|----------------8-----8-----8~~|
|*-3------------------------------|-------------------------------|
|---------------------------------|-------------------------------|
[ Tab from: http://www.guitaretab.com/s/survivor/18806.html ]
|--------------------------------|-------------------------------|
|--------------------------------|-------------------------------|
|-----------------5--------------|------------------------------*|
|-----------------5-----5-----6--|-------------------------------|
|-----------------3-----3-----6--|------------------------------*|
|-----------------------3-----4--|-------------------------------|

|-------|
|-------|
|-5-----|
|-5-----|
|-3-----|
|-------|

VERSE 1 (piano): Cm - Ab - Bb - Cm (4x)

CHORUS:

|----------------|---------------|---------------|---------------|
|----------------|8-------6------|---------------|---------------|
|-1--------------|8-------7------|1--------------|8---7-------7--|
|-3--------------|8-------8------|3--------------|10--8-------8--|
|-3--------------|---------------|3--------------|10--8----------|
|-1--------------|---------------|1--------------|8---6----------|

|----------------|---------------|------------------------------|
|----------------|8-------6------|------------------------------|
|-1--------------|8-------7------|------------------------------|
|-3--------------|8-------8------|-3--2--3--5--3--5---7---------|
|-3--------------|---------------|------------------------------|
|-1--------------|---------------|------------------------------|

VERSE 2 (2 Guitars):

|----------------|---------------|-------------------|---------------|
|-8--------------|---------------|6-----------8-6h8p6|4--------------|
|*8--------------|---------------|7------------------|5-------------*|
|----------------|---------------|-------------------|---------------|
|*---------------|---------------|-------------------|--------------*|
|----------------|---------------|-------------------|---------------|
 
CHORUS

VERSE 3: Cm - Ab - Bb - Cm (2x)

CHORUS: 

|----------------|---------------|---------------|---------------|
|----------------|8-------6------|---------------|---------------|
|-1--------------|8-------7------|1--------------|8---7----------|
|-3--------------|8-------8------|3--------------|10--8----------|
|-3--------------|---------------|3--------------|10--8----------|
|-1--------------|---------------|1--------------|8---6----------|

|----------------|---------------|------------------------------|
|----------------|8-------6------|------------------------------|
|-1--------------|8-------7------|------------------------------|
|-3--------------|8-------8------|-3--2--3--5--3--5---7---------|
|-3--------------|---------------|------------------------------|
|-1--------------|---------------|------------------------------|

|-------------------------------|
|-------------------------------|
|-------------------------------|
|6-6---6-6-6-6---6--------------|
|6-6---6-6-6-6---6--------------|
|-------------------------------|

Outro: play intro, repeat Part B and fade out.

Créer un site gratuit avec e-monsite - Signaler un contenu illicite sur ce site

×