queen-the show must go on

 

Gtr I (E A D G B E) - Brian May

 4/4
  Gtr I

      Bm
Empty spaces, what are we living for?

	    G
Abandoned places, I guess we know the score.

Em 	          F#m 	                 Em 
On and on, does anybody know what we are looking for?

        Bm	
Another hero, another mindless crime,

	     G
Behind the curtain, in the pantomime,

Em	              F#m	              Em
Hold the line, does anybody want to take it anymore?


	          Bm
The show must go on,

	          G
The show must go on.

  Em
Inside my heart is breaking,

   F#m
My make-up may be flaking,

       Em         Bm	
But my smile still stays on.


         C#m
Whatever happens, I'll leave it all to chance,

        A
Another heartache, another failed romance.

F#m	          G#m	                 F#m
On and on, does anybody know what we are living for?

            C#m
I guess I'm learning I must be warmer now,

	       A
I'll soon be turning round the corner now,

  F#m   	                      G#m	                      F#m	        Em Bm Em
Outside the dawn is breaking, but inside in the dark I'm aching to be free.

	          Bm
The show must go on,

	          G
The show must go on.

   Em
Inside my heart is breaking,

    F#m
My make-up may be flaking,

        Em         Bm		Bm G Em F#m Em G(for solo)
But my smile still stays on.

Solo 1:

|------------------------------------------------------------------------------------------------14-15-17-|
|---------------------------------------------------------------------14-15-14-15-14----15-14-17----------|
|-14--------14--------14---------14--------16-14----14-16-14----14-16----------------16-------------------|
|----15b16-----15b16------15b16-----15b16--------16----------16-------------------------------------------|
|---------------------------------------------------------------------------------------------------------|
|---------------------------------------------------------------------------------------------------------|


  
|-17b19=====21-22--21-19-21-21-21b22-19-21-19----19----19------------14b16-------------------------------|
|---------------------------------------------21----22----22b24-22---------17b19-15b17-15----------------|
|-----------------------------------------------------------------------------------------15b17-15-14----|
|--------------------------------------------------------------------------------------------------------|
|--------------------------------------------------------------------------------------------------------|
|--------------------------------------------------------------------------------------------------------|




F	      G	           Em	        Am
My soul is painted like the wings of butterflies,

F	          G	            Em	          Am
Fairy-tales of yesterday will grow and never die,

        G	   Em
I can fly, my friends.

	          Bm
The show must go on,

	         G
The show must go on.

      Em                     F#m		       Em	Bm G
I'll face it with a grin, I'm never giving in, on with show.

Solo 2:

|-13b15--13b15-13b15--18b20-18b20-18b20--19-------------------------------------14-15-17b19r==14-------17b19-17b19-21-19-21-|
|-------------------------------------------14-15-14-15-14-15-14-15----14-15-17------------------17-15----------------------|
|-------------------------------------------------------------------16------------------------------------------------------|
|---------------------------------------------------------------------------------------------------------------------------|
|---------------------------------------------------------------------------------------------------------------------------|
|---------------------------------------------------------------------------------------------------------------------------|


   
|-19-21-19-17-19-15-14----------------|
|----------------------17-15----17----|
|-------------------------------------|
|-------------------------------------|
|-------------------------------------|
|-------------------------------------|


     Em		                 F#m		        Em
I'll top the bill I'll overkill I have to find the will to carry on,

	
On with the ...	

F#m	      Em
On with the show

                Bm	
The show must go on

Créer un site gratuit avec e-monsite - Signaler un contenu illicite sur ce site

×