noir desir-tostaky

 

 

     Riff

      Em
|---------------------------|
|---------7-7-7-7-8-8-10-10-|
|------9--------------------|      a un moment ce meme rythme
|------9--------------------|      est legerement modifie.
|------7--------------------|      Monter d'1 corde, et jouer
|--0-0----------------------|      le riff a l'envers(a peu pres)
                                   et le tour est joue.


Refrain:
********
[ Tab from: http://www.guitaretab.com/n/noir-desir/13575.html ]
   Bm
|--------------9-----7------|------------9------7---|
|-------7----------------7---|------7----------------|

|--7-------7------7----------|--7------7------7------|
|--9-------------------------|--9--------------------|
|--9-------------------------|--9--------------------|
|--7-------------------------|--7--------------------|

    para la....

  Dm                    Em
|---------------------|--------------------|
|---------------------|--------------------|   

|-7---7---7-7-7-7-7---|-9---9---9-9-9-9-9--|      2 fois
|-7---7---7-7-7-7-7---|-9---9---9-9-9-9-9--|
|-5---5---5-5-5-5-5---|-7---7---7-7-7-7-7--|
|---------------------|--------------------|

           este suene....

  B                    A
|--------------------|-----------------------|
|--------------------|-----------------------|
|--------------------|----------------------

|-9-9-9-9--9--9-9-9--|-7-7-7-7--7--7-7-7-----|    5 fois
|-9-9-9-9--9--9-9-9--|-7-7-7-7--7--7-7-7-----|
|-7-7-7-7--7--7-7-7--|-5-5-5-5--5--5-5-5-----|

A
|--------------------|
|--------------------|
|--------------------|
|-7-7-7-7--7--7-7-7--|
|-7-7-7-7--7--7-7-7--|
|-5-5-5-5--5--5-5-5--|

 

 

 

Créer un site gratuit avec e-monsite - Signaler un contenu illicite sur ce site