Noir desir-comme elle vient

 

Intro :
-------------------
-------------------
---9-9-9-9-9-9-9---
-------------------
---7-7-7-7-7-7-7---
-------------------

-----------------------------------------------------
-----------------------------------------------------
---9-9-9-9-9-9---5-5-5-5-5-5-------------------5---7---
---9-9-9-9-9-9---5-5-5-5-5-5---5-5-5-5-5-5---5---7---
---7-7-7-7-7-7---3-3-3-3-3-3---5-5-5-5-5-5---3---5---
------------------------------------3-3-3-3-3-3-----------

Couplet et Refrain:
-----------------------------------------------------------
-----------------------------------------------------------
---9-9-9-9-9-9---5-5-5-5-5-5-------------------7-7-7-7-7-7---
---9-9-9-9-9-9---5-5-5-5-5-5---5-5-5-5-5-5---7-7-7-7-7-7---
---7-7-7-7-7-7---3-3-3-3-3-3---5-5-5-5-5-5---5-5-5-5-5-5---
-----------------------------------3-3-3-3-3-3-----------------

Pont :
-----------------------------------------------------------
-----------------------------------------------------------
--------------------4-4-4-4-4-4---5-5-5-5-5-5-----------------
---2-2-2-2-2-2---4-4-4-4-4-4---5-5-5-5-5-5---5-5-5-7-7-7---
---2-2-2-2-2-2---2-2-2-2-2-2---3-3-3-3-3-3---5-5-5-7-7-7---
---0-0-0-0-0-0------------------------------------3-3-3-5-5-5---
	

Créer un site gratuit avec e-monsite - Signaler un contenu illicite sur ce site