muse-uprising

 

tuning is Drop D but is only needed for solo so standard tuning is fine for no solo.

Intro:

e|-17-13-5-6-8-5-|
B|---------------|
G|---------------|
D|---------------|
A|---------------|
D|---------------|

e|-17-12-9-5-18-17-15-17-|
B|-----------------------|
G|-----------------------|
D|-----------------------|
A|-----------------------|
D|-----------------------|

e|-17-13-10-5-10-13-17-10-18-17-15-17-|
B|------------------------------------|
G|------------------------------------|
D|------------------------------------|
A|------------------------------------|
D|------------------------------------|

e|-17-12-9-5-9-12-17-9-15-13-12-13-|
B|---------------------------------|
G|---------------------------------|
D|---------------------------------|
A|---------------------------------|
D|---------------------------------|


e|-------------|
B|-15-----15---|
G|-17b19-17b19-|
D|-------------|
A|-------------|
D|-------------|


chords used in rest:
    C       C#       D        F        G        G#        A    "The Chord"
e|----|  e|----|  e|----|  e|----|  e|----|  e|----|  e|----|  e|-------|
B|----|  B|----|  B|----|  B|----|  B|----|  B|----|  B|----|  B|-15----|
G|----|  G|----|  G|----|  G|-10-|  G|-12-|  G|-13-|  G|-14-|  G|-17b19-|
D|-10-|  D|-11-|  D|-12-|  D|-10-|  D|-12-|  D|-13-|  D|-14-|  D|-------|
A|-10-|  A|-11-|  A|-12-|  A|--8-|  A|-10-|  A|-11-|  A|-12-|  A|-------|
D|-10-|  D|-11-|  D|-12-|  D|----|  D|----|  D|----|  D|----|  D|-------|

Verse1:
no guitar apart form "the chord"

chorus 1:
play intro

verse 2:
D

When lyrics start...
D        D                  C#          D
           For half measure    For rest    "The Chord" then repeat once more

then

D (strum pattern to bit before chorus V^ ^V^ ^ ^ ^V^ and repeat).

chorus 2:
D        G        F        A        G        F    C#
D        G        F   G#   A        G        F    C#   "The chord"


Solo:
e|---------------------------------------------------------------------|
B|---------------------------------------------------------------------|
G|---------------------------------------------------------------------|
D|---------------------------------------------------------------------|
A|------------3-4-5------------3-4-5------------3-4-5------------3-4-5-|
D|-0-3--5-6-7-------0-3--5-6-7-------0-3--5-6-7-------0-3--5-6-7-------|

e|-----------------------------------|
B|-10--10--10--10--10--10--10--10----|
G|---14--13--12--10------------------|
D|-------------------14--12--11------|
A|-----------------------------------|
D|-------------------------------20\-|

e|------------------------------------|
B|------------------------------15----|
G|-14-1415141514-14-1415141514--17b19-|
D|------------------------------------|    x3
A|-12-1213121312-12-1213121312--------|
D|------------------------------------|

e|-------------------------------|
B|-15----15----15----15----15----|
G|-17b19-17b19-17b19-17b19-17b19-|
D|-------------------------------|
A|-------------------------------|
D|-------------------------------|


chorus 3:
D        G        F        A        G        F    C#
D        G        F   G#   A        G        F    C#  "The Chord"


end part of intro:
e|-17-13-10-5-10-13-17-10-18-17-15-17-|
B|------------------------------------|
G|------------------------------------|
D|------------------------------------|
A|------------------------------------|
D|------------------------------------|

e|-17-12-9-5-9-12-17-9-15-13-12-13-|
B|---------------------------------|
G|---------------------------------|
D|---------------------------------|
A|---------------------------------|
D|---------------------------------|


e|-------------|
B|-15-----15---|
G|-17b19-17b19-|
D|-------------|
A|-------------|
D|-------------|

ring to end:
e-10-|
B|---|
G|---|
D|---|
A|---|
D|---|

Créer un site gratuit avec e-monsite - Signaler un contenu illicite sur ce site

×