Lenny Kravitz-i'll be wiating

Piano

Then guitar enters

e|------------------------------------------------------------------|
B|------------------------------------------------------------------|
G|---5h7---5h7--5h7------5h7---5h7--5h7----10-10-10-10--10-10-10-10-|
D|---5-5---5-5--5-5------5-5---5-5--5-5----10-10-10-10--10-10-10-10-|
A|-----------------------------------------8--8--8--8---8--8--8--8--|
E|------------------------------------------------------------------|
 
(Riff 1)
   e|----------------------|
   B|----------------------|
   G|--5/7--7--5--7--5--7--|
   D|----------------------|
   A|----------------------|
   E|----------------------|


Intro: DmEb - Bb - BbDmEb - Bb - F

Verse: Dm

   Eb               Bb
He broke your heart
   Bb            Dm
He took your soul
    Eb          Bb
You hurt inside
     F            Dm
cause there’s a hole
   Eb          Bb
You need sometime
  Bb      Dm
to be alone
     Eb           Bb
Then you will find 
           F 
what you’ve always known


Pre-Chorus:

(Riff 1)
Dm                   F
I’m the one who really loves you baby
(Riff 1)
        F
I’ve been knocking at your door


Chorus:

 Dm        Eb
As long as I’m living
 Bb
I’ll be waiting
  Dm         Eb
As long as I’m breathing
 Bb     F
I’ll be there
    Dm       Eb
Whenever you call me
 Bb 
I’ll be waiting
   Dm      Eb
Whenever you need me
 Bb     F
I’ll be there


Verse: Dm

 Eb              Bb
I’ve seen you cry
 Bb           Dm
into the night
   Eb           Bb
I feel your pain
      F            Dm
can I make it right
   Eb        Bb
I realize
  Bb                   Dm
there’s no end in sight
     Eb            Bb 
Yet, still I wait
           F 
for you to see the light


Pre-chorus:

(Riff 1)
 Dm                     F 
I’m the one who really loves you baby
(Riff 1)
       F
I can’t make it on my own


Chorus: 1x
  

Bridge:

 Eb           Dm 
You are the only one
     Cm          Eb
I’ve ever known
             Dm
That makes me feel this way
        Cm         Eb 
Girl, you are my own
      Dm
I wane be with you
  Cm             
until we’re old
            F
Because the love you need is right in front of you

please come home


Intro:DmEb - Bb - BbDmEb - Bb - F 


Chorus: 2x


Outro: DmEb - BbBbDmEb - BbF(fade)


I hope you like it...any doubt send me an e-mail to, but always remember its my first tab

Créer un site gratuit avec e-monsite - Signaler un contenu illicite sur ce site