kiss-i was made for ...

 

  intro/chorus                       
e-------------------------------------------------------------------------------------|
B---------------------------------------10--8-----10-10-8------------------5--5/3-|
G---------------------------------------9---9-----9---9--9-------7---5-----4--4/2--|
D---------------------------------------7---7-----7---7--7-------7---7--------------|
A--------------------------------------------------------------------------------------|
E---0-0-0-0-0-0-0-0-0-0-0-0-0-0-0------------------------------------------------|
                                                                       repeat




e-----------------------------------------------------------------------------------|
B----------------10--8-----10--10-8--------------------------14b/14-12---------|
G----------------9---9------9---9--9-----9/7---------------------------------14b-|
D----------------7---7------7---7--7----------9--9/7/5--5/7---------------------|
A-----------------------------------------------------------------------------------|
E-----------------------------------------------------------------------------------|





e----------------------------------------------------------------------------------------|
B----------------------------------------------------8~----------------12~--------------|
G/14-12--14--12/14/12---------------------------9~----------------12~--------------|
D--------------------------14-12--12/14----------9~----------------12~--------------|
A---------------------------------------------------7~----------------10~--------------|
E---------------------------------------------------0~---------------------------------|




  ..darkness..."                "And tonight...."
e-------------------------------------------------------------------------------|
B---4~-----------------------------------8~--------------12~----------4~-----|
G---4~---------------4~-----------------9~--------------12~----------4~------|
D---4~---------------2~-----------------9~--------------12~----------4~------|
A---2~---------------2~-----------------7~--------------10~----------2~------|
E---------------------0~-----------------0~-------------------------------------|


                                                 

   "...made for me..."
e-----------------------------------------------------|
B-----------------------------------------------------|
G------------6--------6------6-------6----------------|
D---------------7--------7------7-------7-------------|
A-----------0-------0-------0------0-------0----------|
E-----------------------------------------------------|
                                     to chorus



                          3x
e----5~-----7~-----10~----------------------5~---------------------------------------|
B----5~-----5~-----7~-----7--7-9~---7-----5~--------------------------------------|
G----5~-----5~-----7~-----7--7-9~---7-----5~------7-7-7-7-7/x----2---4--4------|
D----7~------------7~------7--7-9~---7-----7~------7-7-7-7-7/x----2---4--4------|
A-------------------------------------------------------5-5-5-5-5/x----0---2--2------|
E----------------------------------------------------------------------------------------|





e------------------------------------------------------------------------------------------|
B------------------------------------------------------------------------------------------|
G4--4--4--4------------------------------------------------------------------------------|
D4--4--4--4------------------------------------------------------------------------------|
A2--2--2--2--------7/x-------------------------------------------------------------------|
E-----------------------------0-0-0-0-0-0-0-0-0-0-0-0-0-0-0--5-5-5-5-5-5-5-5-5-5-|
                                               etc                      etc




e------------------------------------------------------------------------------------------------------|
B-----------------------------------------------------------------------12----------------------------|
G-----------------------------------------------------------------12---12----14b-14-12------------|
D-------------------------4-4-4-4-5-5-5-5-5-7/x--------/14---12------------------------14/12---|
A------------------------------------------------------------------------------------------------------|
E5-5--0-0-0-0-0-0-0---------------------------------------------------------------------------------|





e------------------------------------------------------------------------------------------------------------------|
B--------------------------------------------------15b~-15b~---15/12--12------------------------------------|
G-----12/14/12------12--14b/14-12---12-----------------------------------14----14/12-------12--14b~~-|
D/14-------------14--------------------------14---------------------------------------------14----------------|
A----------------------------------------------------------------------------------------------------------------|
E----------------------------------------------------------------------------------------------------------------|
---

            
            
            
e-------------------------|
B-15---------------------|
G---~-14-12-------------|
D---------------14~------|
A-------------------------|
E-------------------------|

Créer un site gratuit avec e-monsite - Signaler un contenu illicite sur ce site

×