jj goldman-il suffira d'un signe

   

 

Normalement, il suffira d'un signe est en Cm. C'est la version en Dm que j'ai 

retranscrit ici mais il est tout à fait possible de reculer la tablature de deux 

cases. Je pense aussi que l'on doit considérer le Dm comme un D5.





X=étouffé la corde avec la paume de la main





  D5

E|-----------------|

B|-----------------|

G|-----------------|

D|7-----7-----7----|   x4

A|5-X-X-5-X-X-5-X--|

E|-----------------|





Couplet :



E|-----------------|

B|-----------------|

G|-----------------|

D|7-----7-----7----|   

A|5-X-X-5-X-X-5-X--|

E|-----------------|











E|-----------------|

B|-----------------|

G|-----------------|

D|8-----5-----5----|   

A|5-X-X-5-X-X-5-X--|

E|-----------------|









E|-----------------|

B|-----------------|

G|-----------------|

D|7-----7-----7----|   

A|5-X-X-5-X-X-5-X--|

E|-----------------|



                        } x6





E|-----------------|

B|-----------------|

G|-----------------|

D|8-----5-----5----|   

A|5-X-X-5-X-X-5-X--|

E|-----------------|





  Bb

E|-----------------|

B|-----------------|

G|7-----7-----7----|

D|8-----8-----8----|   

A|8-----8-----8----|

E|6-X-X-6-X-X-6-X--|





  C

E|-----------------|

B|-----------------|

G|9-----9------9---|

D|10----10-----10--|   

A|10----10-----10--|

E|8-X-X-8--X-X-8--X|







  D5

E|-----------------|

B|-----------------|

G|-----------------|

D|7-----7-----7----|   

A|5-X-X-5-X-X-5-X--|

E|-----------------|











E|-----------------|

B|-----------------|

G|-----------------|

D|8-----5-----5----|   

A|5-X-X-5-X-X-5-X--|

E|-----------------|









E|-----------------|

B|-----------------|

G|-----------------|

D|7-----7-----7----|   

A|5-X-X-5-X-X-5-X--|

E|-----------------|



                        } x6





E|-----------------|

B|-----------------|

G|-----------------|

D|8-----5-----5----|   

A|5-X-X-5-X-X-5-X--|

E|-----------------|





  Bb

E|-----------------|

B|-----------------|

G|-----------------|

D|8-----8-----8----|   

A|8-----8-----8----|

E|6-X-X-6-X-X-6-X--|





  A

E|-----------------|

B|-----------------|

G|-----------------|

D|7-----7-----7----|   

A|7-----7-----7----|

E|5-X-X-5-X-X-5-X--|









Refrain :





  D                         D

E|-----------------|----------------|

B|------8---7------|--8--8--7-------|

G|------7---7----7-|--7--7--7-------|

D|7-----7---7----7-|--7--7--7--7----|

A|5---------5----8-|--------5--5----|

E|-----------------|----------------|







  

E|-----------------|----------------|

B|------8---7------|----------------|

G|------7---7------|----------------|

D|7-----7---7------|----------------|

A|5---------5------|-----5-8-7-5---5|

E|---------------6-|---8---------8--|









  

E|-----------------|---------------|

B|------8---7----8-|--8--8--7------|

G|7-----7---7----7-|--7--7--7------|

D|7-----7---7----7-|--7--7--7--7---|

A|----------5------|--------5--5---|

E|-----------------|---------------|







  Bb                   C

E|--------------------|----------------------------|

B|--------------------|----------------------------|

G|7-7--7-7--7-7--7-7--|9--9---9--9---9--9---9--9---|

D|8-8--8-8--8-8--8-8--|10-10--10-10--10-10--10-10--|

A|8-8--8-8--8-8--8-8--|10-10--10-10--10-10--10-10--|

E|6-6--6-6--6-6--6-6--|8--8---8--8---8--8---8--8---|







  

E|----------------|

B|----------------|

G|----------------|

D|-------5-7-8-7--|   

A|------5---------|

E|3-5-6-----------|













Couplet + refrain + couplet ad lib

Créer un site gratuit avec e-monsite - Signaler un contenu illicite sur ce site