iron maiden-the number of the.

 

 

intro 1

riff 1
--------------------------------------------------------------------
--------------------------------------------------------------------
--------------------------------------------------------------------
--------------------------------------------------------------------   x2
---------9-9-10-10-12--x--x--12--x--x--12--x--x--12--x--x-12-----------
---10-10------------10-10-10-10-10-10-10-10-10-10-10-10-10-----------


riff 2
--------------------------------------------------------------------
--------------------------------------------------------------------
--------------------------------------------------------------------
--------------------------------------------------------------------
-------7-7-8-8-10-x-x--10-x-x--10-x-x--10-x-x--10-----------------------
---8-8----------8--8--8--8--8-8--8--8-8---8--8-8--8-----------------------

 

 

 

intro 2

 palm mute it all
e:-------------------------------------------------------------------------------------------
B:-------------------------------------------------------------------------------------------
G:-------------------------------------------------------------------------------------------
D:--------4---5---7-----7-----7-----7-----7-------4---5---7-----7-----7-----7-----7----------
A:--5-5-5---5---5---5-5---5-5---5-5---5-5---5-5-5---5---5---5-5---5-5---5-5---5-5---5-5-5----
E:-------------------------------------------------------------------------------------------

e:-------------------------------------------------------------------------------------------
B:-------------------------------------------------------------------------------------------
G:-------------------------------------------------------------------------------------------
D:------2---3---5-----5-----5-----5-----5-----------4---5---7-----7-----7-----7-----7--------
A:--3-3---3---3---3-3---3-3---3-3---3-3---3-3-3-5-5---5---5---5-5---5-5---5-5---5-5---5-5-5--
E:-------------------------------------------------------------------------------------------


 

 

Bit Before Verse
-----------------------------------------------------
-----------------------------------------------------
-----------------------------------------------------
--7-7-7-7--7---7-7-7-7--7---5-5-5-5--5---7-7-7-7--7--
--5-5-5-5--5---5-5-5-5--5---3-3-3-3--3---5-5-5-5--5--
-----------------------------------------------------

Verse
----------------------------
----------------------------
----------------------------
--7-x-7-x-7--7-7-7-7-7-7-7-- x3
--5-x-5-x-5--5-5-5-5-5-5-5--
----------------------------

-------------------
-------------------
-------------------
--5-5-5-5-7-7-7-7--
--3-3-3-3-5-5-5-5--
-------------------

Repeat as nessescary

Chorus
-----------------------------
-----------------------------
--5-------5---7---5-------5--
--5---5---5---7---5---5---5--
--3---5---3---5---3---5---3--
------3---------------3------

Verse
----------------------------
----------------------------
----------------------------
--7-x-7-x-7--7-7-7-7-7-7-7-- x3
--5-x-5-x-5--5-5-5-5-5-5-5--
----------------------------

-------------------
-------------------
-------------------
--5-5-5-5-7-7-7-7--
--3-3-3-3-5-5-5-5--
-------------------

Repeat as nessescary

Chorus
-----------------------------
-----------------------------
--5-------5---7---5-------5--
--5---5---5---7---5---5---5--
--3---5---3---5---3---5---3--
------3---------------3------

Riff B
----------------------------------------------------
----------------------------------------------------
------------------------------5----5-5-5-7-5-5-7-5--
--5-5-5-7-5--7-7-7-9-7--9-9-9---9------------------- x4
----------------------------------------------------
----------------------------------------------------

Dave's Solo
this isn't really how you play Daves solo, its my own improvised version
that my friend's say sounds a lot like it, decide for yourself.
---------------------------------
-----------------------12-14-15--
-----------12----12-14-----------
--12-14-15----15-----------------
---------------------------------
---------------------------------

---------------------------------------
--15-14-12-15-12----12-----------------
-----------------15----15-14-12-14-----
-----------------------------------14--
---------------------------------------
---------------------------------------

----------------------------------------------------------------------------
--12----15-12----15-12----15-12----15--15----18-15----18-15----18-15----18--
-----14-------14-------14-------14--------17-------17-------17-------17-----
----------------------------------------------------------------------------
----------------------------------------------------------------------------
----------------------------------------------------------------------------

------------------------------------------------------------
--18-17-15----15--------------------------------------------
-----------18----18-17-15-12-15-14-12-14-12-----------------
--------------------------------------------14-12-14-12-----
--------------------------------------------------------14--
------------------------------------------------------------

-----------------------15-17---18--
-----------12----12-14-------------
--12-14-15----15-------------------
-----------------------------------
-----------------------------------
-----------------------------------

Breakdown
--------------------------------------------
--------------------------------------------
--------------------------------------------
-----12----10---------10--------------------
--12----12----12-10-8----12-10-8-8----------
-----------------------------------12-10-8--

---------------------------------
---------------------------------
---------------------------------
----8---6-------6----------------
--8---8---8-6-4---8-6-4-4--------
--------------------------8-6-4--

sorry don't know Adrians solo or the bit after

Verse
----------------------------
----------------------------
----------------------------
--7-x-7-x-7--7-7-7-7-7-7-7-- x3
--5-x-5-x-5--5-5-5-5-5-5-5--
----------------------------

-------------------
-------------------
-------------------
--5-5-5-5-7-7-7-7--
--3-3-3-3-5-5-5-5--
-------------------

Repeat as nessescary

Chorus
-----------------------------
-----------------------------
--5-------5---7---5-------5--
--5---5---5---7---5---5---5--
--3---5---3---5---3---5---3--
------3---------------3------

Riff A
---------------------------------------
---------------------------------------
---------------------------------------
--------4-5-7-x-x-7-x-x-7-x-x-7-x-x-7-- x3  
--5-5-5-----5-5-5-5-5-5-5-5-5-5-5-5-5--
---------------------------------------

---------------------------------------
---------------------------------------
---------------------------------------
--------2-3-5-x-x-5-x-x-5-x-x-5-x-x-5--
--3-3-3-----3-3-3-3-3-3-3-3-3-3-3-3-3--
---------------------------------------

repeat as nessescary

Outro
---------------------------------------------------------
---------------------------------------------------------
---------------------------------------------------------
--7-7-7-7--7---7-7-7-7--7---5-5-5-5--5---7-7-7-7--7-5-7--
--5-5-5-5--5---5-5-5-5--5---3-3-3-3--3---5-5-5-5--5-3-5--
---------------------------------------------------------

 

Créer un site gratuit avec e-monsite - Signaler un contenu illicite sur ce site

×