bon jovi-keep the faith

 

 

Bass Intro

The guitar has some delay and plays this
La guitarra tiene delay y toca esto
|-----|
|-8-6-|
|-7-5-|
|-5-3-|
|-5-3-|
|-----|

Verse
|-----------|------------|
|-----------|------------|the rythm is easy just hear the song
|-----------|------------|oigan la rola para el ritmo
|---3-5-3---|---3-5-8-10-|
|-5-1-3-1-5-|-5-1-3-6--8-|
|-3-------3-|-3----------|

Chorus          
|---------|---|
|---------|---|
|---------|---|
|---3---5-|---|this chord is after the chorus 
|-5-1-3-3-|-5-|play it a bunch of times
|-3---1---|-3-|esto es despues del coro,muchas veces

Pre-Solo
|---|
|---|u know a bunch of times
|---|bastantes veces
|---|
|-3-|
|-1-|

For the solo i improvise, richie plays it different
in the shows

Bridge/ after the solo some distor with delay
hear the song for timming
oigan la cancion para los tiempos
|----------------------------------|
|-8~-6~---6-8~~-20~-18~----18-20~~-|
|-------7---------------19---------|
|----------------------------------|
|----------------------------------|
|----------------------------------|

then the chorus and you add the final chords of the verse
despues es coro y agregan los ultimos acordes del verso

Créer un site gratuit avec e-monsite - Signaler un contenu illicite sur ce site