REM-loosing my religion

 

F         G         G(II)     Am        Em        Dm        C
e|--1--|  e|--3--|  e|--3--|  e|--0--|  e|--0--|  e|--5--|  e|--0--|
b|--1--|  b|--3--|  b|--3--|  b|--1--|  b|--0--|  b|--6--|  b|--1--|
g|--2--|  g|--4--|  g|--0--|  g|--2--|  g|--0--|  g|--7--|  g|--0--|
D|--3--|  D|--5--|  D|--0--|  D|--2--|  D|--2--|  D|--7--|  D|--2--|
A|--3--|  A|--5--|  A|--2--|  A|--0--|  A|--2--|  A|--5--|  A|--3--|
E|--X--|  E|--X--|  E|--3--|  E|--X--|  E|--0--|  E|--X--|  E|--0--|



Intro 
                    F     G               Am                                            
e|--10--12--10------8--|--10--12--10------8--|
b|--------------10-----|--------------10-----|
g|---------------------|---------------------|
D|---------------------|---------------------|
A|---------------------|---------------------| 
E|---------------------|---------------------|

F     G               Am     G(II)
e|--10--12--10------8--|--10--12--10------8--|    
b|--------------10-----|--------------10-----|
g|---------------------|---------------------|
D|---------------------|---------------------|
A|---------------------|---------------------| 
E|---------------------|---------------------|

Guitar pass

e|-----------5--3-----|
b|--------5--------3--|
g|--5--7--------------|
D|--------------------|
A|--------------------|
E|--------------------|


        Am            Em
Oh life    is bigger,    it's bigger than you.
            Am                              Em
And you are not me, the lengths that I will go to.
                           Am
The distance in your eyes.
Em                      Dm                            G
   Oh no, I've said     too    much, I've said enough.


#Guitar pass#

                         Am                  Em
That's me in the corner,    That's me in the spot light,
                    Am           Em
Losing my religion.    Trying to keep up with you.
      Am
And I don't know if I can do it.
Em                      Dm                                 G
   Oh no, I've said     too    much, I haven't said enough.


#You do the intro note here#

                                     F 
I thought that I heard you laughing.
F                G         Am    
I thought that I heard you sing.
  F                      G   Am    G(II)
I think I thought I saw you try.


#Guitar pass#

                 Am
  Every whisper,
             Em                                 Am
Every waking hour, I'm choosing my confessions.
          Em
Trying to keep eye on you.
       Am
Like a hurt lost and blinded fool, fool.
Em                            Dm                G
   Oh no, I've said too much.    I said enough.


#Guitar pass#

               Am               Em
Consider this,    consider this hint of the century.
               Am                Em
Consider this,    the slip, that brought me to my knees pale.
Am                               Em
What if all these fantasies come    flaming aground.
         Dm       G
Now I've said too much.


#You do the intro note here#

                                     F 
I thought that I heard you laughing.
F                G         Am    
I thought that I heard you sing.
  F                     G   Am     G
I think I thought I saw you try.

Interlude
    C                               Am
e|--12--12--12--10--10--10--10--10--8--8--8--5--5--5--5--5--|
b|----------------------------------------------------------|
g|----------------------------------------------------------|
D|----------------------------------------------------------|
A|----------------------------------------------------------|
E|----------------------------------------------------------|
[ Tab from: http://www.guitaretab.com/r/rem/15914.html ]
    C                               Am
e|--12--12--12--10--10--10--10--10--8--8--8--5--5--5--5--5--|
b|----------------------------------------------------------|
g|----------------------------------------------------------|
D|----------------------------------------------------------|
A|----------------------------------------------------------|
E|----------------------------------------------------------|

    C                               Am
    That's was just dream 
e|--12--12--12--10--10--10--10--10--8--8--8--5--5--5--5--5--|
b|----------------------------------------------------------|
g|----------------------------------------------------------|
D|----------------------------------------------------------|
A|----------------------------------------------------------|
E|----------------------------------------------------------|

    C                               Am
    That's was just a dream         That's me in the corner       
e|--12--12--12--10--10--10--10--10-----------5--3--------------|
b|----------------------------------------5--------3-----------|
g|----------------------------------5--7-----------------------|
D|-------------------------------------------------------------|
A|-------------------------------------------------------------|
E|-------------------------------------------------------------|

                 Em                              Am
That's me in the spot light, losing my religion.
          Em                       Am
Trying to keep up with you.  And I don't know if I can do it.
Em                      Dm
   Oh no, I've said     too    much.
                       G
I haven't said enough.


#You do the intro note until the outro#
 
                                    F 
I thought that I heard you laughing.
                 G         Am    
I thought that I heard you sing.
  F                     G     Am
I think I thought I saw   you try.
    F                     G          Am     
But that was just a dream,      try, cry, why try.
F                     G        Am            G(II)   G(II)
That was just a dream,   just a dream, just a dream, dream.

Outro
e|--12--12--12--12--12--12--12--12--|
b|----------------------------------|
g|----------------------------------|
D|----------------------------------|
A|----------------------------------|
E|----------------------------------|

e|--12--12--12--12--12--12--12--12--|
b|----------------------------------|
g|----------------------------------|
D|----------------------------------|
A|----------------------------------|
E|----------------------------------|

e|--12--12--12--12--12--12--12--12--|
b|----------------------------------|
g|----------------------------------|
D|----------------------------------|
A|----------------------------------|
E|----------------------------------|

e|--12--12--12--12--12--12--12--12--|
b|----------------------------------|
g|----------------------------------|
D|----------------------------------|
A|----------------------------------|
E|----------------------------------|

e|--12--12--12--12--12--12--12--12--|
b|----------------------------------|
g|----------------------------------|
D|----------------------------------|
A|----------------------------------|
E|----------------------------------|

e|--12--12--12--12--12--12--12--12--|
b|----------------------------------|
g|----------------------------------|
D|----------------------------------|
A|----------------------------------|
E|----------------------------------|

e|--12--12--12--12--12--12--12--12--|
b|----------------------------------|
g|----------------------------------|
D|----------------------------------|
A|----------------------------------|
E|----------------------------------|

e|--12--10----------10-------------------|
b|----------13--10------13--10--13--10v--|
g|---------------------------------------|
D|---------------------------------------|
A|---------------------------------------|
E|---------------------------------------|

Créer un site gratuit avec e-monsite - Signaler un contenu illicite sur ce site

×