Bruno mars-the way you are

 

Tuning:Capo on 5th fret.
Intro
e|-----0-0-1-0-1-3-3-3-----0-0-1-0-1-3-3-3-----0-0-1-0-1-3-3-3-----0-0-1-0-1-|
B|----1-1-1---1---1-1-----1-1-1---1---1-1-----1-1-1---1---1-1-----1-1-1---1--|
G|---0-------------------2-------------------2-------------------0-----------|
D|------------------------------------------3--------------------------------|
A|--3-------------------0---------------------------------------3------------|
E|---------------------------------------------------------------------------|
e|3-3-3---------|
B|-1-1----------|
G|--------------|
D|--------------|
A|--------------|
E|--------------|
Verse 1
e|-----0-0-1-0-1-3-3-3-----0-0-1-0-1-3-3-3-----0-0-1-0-1-3-3-3-----0-0-1-0-1-|
B|----1-1-1---1---1-1-----1-1-1---1---1-1-----1-1-1---1---1-1-----1-1-1---1--|
G|---0-------------------2-------------------2-------------------0-----------|
D|------------------------------------------3--------------------------------|
A|--3-------------------0---------------------------------------3------------|
E|---------------------------------------------------------------------------|
e|3-3-3---------|
B|-1-1----------|
G|--------------|  x2
D|--------------|
A|--------------|
E|--------------|
Oh, her eyes, her eyes, make the stars look like theyre not shining.
Her hair, her hair, falls perfectly without her trying.
Shes so beautiful and I tell her every day.
Yeah, I know, I know, when I compliment her, she wont believe me.
And its so, its so, sad to think that she dont see what I see.
But every time she asks me do I look okay, I say.
Chorus
                (C)                 (Am)
When I see your face, theres not a thing that I would change.
                 (F)                      (C)
Cause youre amazing, just the way you are.
                (C)                  (Am)
And when you smile, the whole world stops and stares for a while.
                 (F)                         (C)
Cause girl youre amazing, just the way you are.
Verse 2 (Just repeat tab from Verse 1)
Yeah, her lips, her lips, I could kiss them all day if shed let me.
Her laugh, her laugh, she hates but I think its so s**y.
Shes so beautiful and I tell her every day.
Oh you know, you know, you know Id never ask you to change.
If perfects what youre searching for then just stay the same.
So, dont even bother asking if you look okay, you know I say.
Chorus
                (C)                 (Am)
When I see your face, theres not a thing that I would change.
                 (F)                      (C)
Cause youre amazing, just the way you are.
                (C)                  (Am)
And when you smile, the whole world stops and stares for a while.
                 (F)                         (C)
Cause girl youre amazing, just the way you are.
Bridge
e|----3333333333333333-3333000000000000-1111111111000000-3333333333333333----|
B|----1111111111111111-1111111111111111-1111111111111133-1111111111111111----|
G|----0000000000000000-2222222222222222-2222222222222222-0000000000000000----|
D|----2222222222222222-2222222222222222-3333333333333333-2222222222222222----|
A|----3333333333333333-----------------------------------3333333333333333----|
E|---------------------------------------------------------------------------|
The way you are, the way you are,
Girl youre amazing, just the way you are.
Chorus (Use tab from verse 1 for this last chorus)

Créer un site gratuit avec e-monsite - Signaler un contenu illicite sur ce site